kották zenék és minden ami egy zenésznek kell
kották zenék és minden ami egy zenésznek kell
Tartalom
Bejelentkezés
Felhasználónév:

Jelszó:
SúgóSúgó
Regisztráció
Elfelejtettem a jelszót
 
népesség számláló
Indulás: 2006-08-18
 
Menü
 
naptár
2014. Augusztus
HKSCPSV
28
29
30
31
01
02
03
04
05
06
07
08
09
10
11
12
13
14
15
16
17
18
19
20
21
22
23
24
25
26
27
28
29
30
31
01
02
03
04
05
06
<<   >>
 
levédés,szerzöi jogok
 
társoldalak
 
gitárosoknak
 
zenei honlapok
 
zeneszerkesztés PC
 
STUDIOK
 
HANGSZERGYÁRTÓK
 
karaoke mindenes
 
Kották
 
személyes oldalak
 
LETÖLTHETÖ MP3--24 órán belül töröld a gépedröl!felelösség a tied--
 
uj stilusu diszko mp3 letölthetöségek stb
 
GUNS N ROSES KOTTÁK

 

Guns n' Roses



Guns n' Roses - Don't cry

|-------|---------0---------------1---------------3-----------------------| 
|-------|-----------1-----------3---3---------------3---------------------| 
|-------|-------2-----2-------2-------2---------------0-------0-----0-----| 
|-------|-----2---------0-0---------------------0-----------0-----0-------| 
|-------|-0-----------------------------0-----2---------0-3-----2-----3-2-| 
|-3-----|---------------------------------3-------------------------------| 

|---------0---------------1-----------------------------| 
|-----------1-----------3---3---------------------------| 
|-------2-----2-------2-------2---------0---------------| 
|-----2---------0-0-------------------0-------------2---| 
|-0-----------------------------0---2---------------0---| 
|---------------------------------3-----------2-3-4-----|

[Am] If we could [Dm]see tomorrow
[G] What of your [C]plans,
[Am] No one can [Dm]live in sorrow,
[G] Ask all your [C]friends.
[Am] Times that you [Dm]took in stride
They're [G] back in de[C]mand,
[Am] I was the [Dm]one who's washing
[G] Blood off your [C]hands.

[F] Don't you [G]cry to[Am]night,
I still love you baby,
[F] Don't you [G]cry to[Am]night.
[F] Don't you [G]cry to[C]night,
There's a heaven a[Am]bove you baby,
[F] And don't you [G]cry to[Am]night.

[Am] I know the [Dm]things you wanted,
[G] They're not what you [C]have,
[Am] With all the [Dm]people talkin',
[G] It's drivin' you [C]mad.
[Am] If I was [Dm]standin' by you
[G] How would you [C]feel,
[Am] Knowing your [Dm]love's decided
[G] And all love is [C]real?

[F] And don't you [G]cry to[Am]night,
[F] Don't you [G]cry to[Am]night.
[F] Don't you [G]cry to[C]night,
There's a heaven a[Am]bove you baby,
[F] And don't you [G]cry to[Am]night.

(Solo)

[Am] I thought I could [Dm]live in your world
[G] As years all went [C]by,
[Am] With all the [Dm]voices I've heard
[G] Something has [C]died.
[Am] And when you're in [Dm]need of someone
[G]My heart won't de[C]ny you,
[Am] So many [Dm]seem so lonely
With [G]no one left to [C]cry to baby.

[F] And don't you [G]cry to[Am]night,
[F] And don't you [G]cry to[Am]night,
[F] And don't you [G]cry to[C]night,
There's a heaven a[Am]bove you baby.
[F] And don't you [G]cry,
[F] Don't you ever [G]cry,
[F] Don't you [G]cry to[Am]night,
Baby maybe someday.
[F] Don't you [G]cry,
[F] Don't you ever [G]cry,
[F] Don't you [G]cry
To[Am]night.

 

Guns n' Roses - Patience

[C-G-A-D] x 2

[C-G-C-Em-C-G-D]

[C]Shed a tear 'cause I'm missing you,
[G]I'm still alright to smile,
[A]Girl, I think about you every [D]day now.

[C]Was a time when I wasn't sure,
But you [G]set my mind at ease,
[A]There is no doubt you're in my [D]heart now.

[C]Said: woman [G]take it slow,
It'll [C]work itself out [Em]fine,
[C]All we need is [G]just a little [D]patience.

[C]Said: sugar [G]make it slow
And we'll [C]come together [Em]fine,
[C]All we need is [G]just a little [D]patience.

[C]Sit here on the stairs
'Cause I'd [G]rather be alone,
[A]If I can't have you right now, I'll [D]wait dear.

[C]Sometimes, I get so tense,
But I [G]can't speed up the time,
[A]But you know, love, there's one more thing to con[D]sider.

[C]Said: woman [G]take it slow,
[C]Things will be just [Em]fine,
[C]You and I'll just [G]use a little [D]patience.

[C]Said: sugar [G]take the time
'Cause the [C]lights are shining [Em]bright,
[C]You and I've got [G]what it takes to [D]make it.

[D]We won't fake it,
Oh never break it
'Cause I can't take it.

e-----------------8-7-|-8-----8-10-8-------|---------8-7-|-8-----8-10---10^12-|-----8-7---|
H---------------------|--------------10^12-|-----8-------|--------------------|-----------|
G---------------------|--------------------|-------------|--------------------|-----------|
D---------------------|--------------------|-------------|--------------------|-----------|

e-8-----8-10-8-------|--------------10^12-|---10-10-----12^14-|---12-10---10-----|
H--------------10^12-|---10-8-8---8-------|-------------------|------------------|
G--------------------|--------------------|-------------------|------------------|
D--------------------|--------------------|-------------------|------------------|

e---------------------|-----------------|-------------------|
H---------5-8---------|-----------------|-----5-8-----------|
G-----7-------7---5-7-|-----4-7---------|-7-------7---5-7---|
D---------------------|-7-------7---5---|-------------------|

e-------------------|---------------------|---------------------|-------------|
H-----10^8^----8-10-|-10---8-------8-10---|-8-10---8-10-8-10^12-|-10---10-----|
G-9--------9--------|----------9----------|---------------------|-------------|
D-------------------|---------------------|---------------------|-------------|

[G]A little [C]patience, [G]mmm [C]yeah, [G]ooh [C]yeah,
[G]Need a little [C]patience, yeah,
[G]Just a little [C]patience, yeah,

[G]I've been walking these streets at night,
[C]Just trying to get it right,
It's [G]hard to see with so many around,
[C]You know I don't like being stuck in a crowd
And the [G]streets don't change but baby the name,
[C]I ain't got time for the game
'Cause I [G]need you,
Yeah, yeah well I [C]need you,
Oh, I [G]need you,
Woh, I [D]need you,
Ooh, this [G]time. [C-G]

 

Guns n' Roses - Sweet child o' mine

    e-------------15----14----|        |-------------15----14----|
    H----15-------------------|        |----15-------------------|
||: G-------14-12----14----14-| x 2    |-------14-12----14----14-| x 2
    D-12----------------------|        |-14----------------------|

e-------------15----14----|        |-------------15----14----|
H----15-------------------|        |----15-------------------|
G-12----14-12----14----14-| x 2    |-------14-12----14----14-| x 2  :||
D-------------------------|        |-12----------------------|

e-------------15----14----|        |-------------15----14----|
H----15-------------------|        |----15-------------------|
G-------14-12----14----14-| x 2    |-------14-12----14----14-| x 2
D-12----------------------|        |-14----------------------|

e-------------15----14----|
H----15-------------------| x 2
G-12----14-12----14----14-|

e-12-----------12-----14----|-15-----14----12------------|
H--------15-----------------|---------------------15-----|
G-----14----14-----14----14-|-----14----14-----14----14--|

[D]She's got a smile that it seems to me
Re[C]minds me of childhood memories
Where [G]everything
Was as fresh as the bright blue [D]sky.
Now and then, when I see her face
She [C]takes me away to that special place,
And if I [G]stared too long
I'd probably break down and [D]cry.

[A]Woah, woah, [C]woah, sweet child o' [D]mine,
[A]Oh, oh, oh, [C]oh, sweet love of [D]mine.

H---10---8--7-----10--8--7----10---8------10---8-----10---8---|
G-------------------------------------9------------9----------|

e------------------10--10^-----------------|
H-10-^-8--10-^-----------------------------|
G----------------------------9-^-----------|

[D]She's got eyes of the bluest skies
As [C]if they thought of rain,
I [G]hate to look into those eyes,
And [D]see an ounce of pain.
Her hair reminds me of a warm safe place
Where [C]as a child I'd hide,
And [G]pray for the thunder and the rain
To [D]quietly pass me by.

[A]Woah, woah, [C]woah, sweet child o' [D]mine,
[A]Oh, oh, oh, [C]oh, sweet love of [D]mine.

H---10---8--7-----10--8--7----10---8------10---8-----10-\-8---|
G-------------------------------------9------------9----------|

e-----------------------------10--------------------|
H-10-\-8----8-7---7-^------------\-7-----10----8--7-|
G---------------7-----------------------------------|

e-------------------10----10-\-8-------\12--------|
H-10---8----7-10-^--------------------------------|

e--12---12^10---10^8---8^7--------------|
H----------------------------8----------|
G------------------------------7--------|

e-----------------------10---10-^----------17---|
H-10-^-------8---10-^---------------17-^--------|

Woaoaoah yeah, [A]Oh, oh, oh, [C]oh, sweet child o' [D]mine,
[A]Oh, oh, woah, [C]oh, sweet love of [D]mine.

[A]Oh, oh, oh, [C]oh, sweet child o' [D]mine,
Oh yeah, [A]ooh, [C]ooh, sweet love of [D]mine.

(Solo)

[Em]Where do we go,
Where do we go now,
Where do we go?

[G]Where do we go, (where do we go now)
Ooh, where do we go now[A]?

[G]Where do we go, (sweet child)
Where do we go now[A]?

[G]Aiaiaiaiaiaiaiai, [Em]where do we go now,
[C]Ah ah ah ah ah auau, [G]where do we go,
Aaaah, [Em]where do we go now[A]?

Oh, [G]where do we go, oaah,
[Em]Where do we go now[A]?

[G]Where do we go,
Oaah, [Em]where do we go now[A], now, now, now, now, now, now, [Em]now?
Sweet [C]child, sweet [G-C]child o' [Em.]mine.

 


Kattints arra a képre, amelyiket nagyobb méretben szeretnél megnézni!

 
ÁKOS KOTTÁK
 
BERGENDI KOTTÁK
 
BEATRICE KOTTÁK
 
BIKINI KOTTÁK
 
BRÓDY JÁNOS KOTTÁK
 
EDDA MŰVEK KOTTÁK
 
FONOGRÁF KOTTÁK
 
HOOLIGANS KOTTÁK
 
HUNGÁRIA KOTTÁK
 
ILLÉS EGYÜTTES KOTTÁK
 
ISTVÁN A KIRÁLY
 
KÁRPÁTIA KOTTÁK
 
KISPÁL ÉS A BORZ KOTTÁK
 
KONCZ ZSUZSA KOTTÁK
 
LGT KOTTÁK
 
MÁTÉ PÉTER
 
OMEGA KOTTÁK
 
PIRAMIS KOTTÁK
 
REPUBLIC KOTTÁK
 
TANKCSAPDA KOTTÁK
 
TRADICIONÁLIS DALOK
 
ZORÁN KOTTÁK
 
KÜLFÖLDI EGYÜTTESEK KOTTÁI
 
DEMJÉN FERENC KOTTÁK
 
HAMAROSAN FELTÖLTÉSRE KERÜL...
 
11111111111
 
Tartalom

Sportfogadás felsõfokon! Fogadj nyereséggel,legjobb tippek!Admint keresek!Kattints erre a szövegre!    *****    3 részes merinoflór ágynemû garnitúra - 3.490 Ft-ért    *****    3 részes Ceramic pan serpenyõkészlet - 5.990 Ft-ért    *****    DEMI LOVATO legfrisebb magyar rajongói oldala: DEMI LOVATIC // DEMI LOVATIC    *****    Sportfogadás felsõfokon! Fogadj nyereséggel,legjobb tippek!Admint keresek!Kattints erre a szövegre!    *****    Mini HD kamera - 5.990 Ft-ért - AkarokEgyIlyet.hu    *****    SELENA GOMEZ MAGYARORSZÁG - SELENA GOMEZ MAGYARORSZÁG - SELENA GOMEZ MAGYARORSZÁG - SELENA GOMEZ MAGYARORSZÁG - KATT!    *****    Sportfogadás felsõfokon! Fogadj nyereséggel,legjobb tippek!Oszd meg tippjeidet,szelvényeidet! Kattints! Szép napot!    *****    Sportfogadás felsõfokon! Fogadj nyereséggel! Legjobb tippek!Kattints ide az oldalhoz!Tipsterhungary    *****    Metafun kártyatartó - 1.090 Ft-ért    *****    Napi ajánlat, csak a mai nap éjfélig ! - Univerzális autós laptop töltõ - 3.390 Ft-ért    *****    7 részes kerámia bevonatú késkészkészlet + Ajándék hámozó - 3.490 Ft-ért    *****    Sportfogadás felsõfokon,fogadj nyereséggel.Minden nap frissülõ tippek,részletes elemzéssel.    *****    Felfedezésre váró titkok várnak Rád és egy ismeretlen világ, melyrõl még biztosan nem hallottál! SZEREPJÁTÉK!    *****    SZEREPJÁTÉK - Egy kisváros, nagy titkokkal, ahol egyre furább dolgok történnek... keresd meg te az okát!    *****    Tini Nindzsa Teknõcök 3D - Játssz és nyerj páros mozijegyet és nézd meg a filmet a G-Portál csapatával! :))    *****    Keira Knightley - kknightley.gportal.hu - Keira Knightley - kknightley.gportal.hu - Keira Knightley - kknightley.gp    *****    Napi ajánlat, csak a mai nap éjfélig ! - 7 részes kerámia bevonatú késkészkészlet + Ajándék hámozó - 3.190 Ft-ért    *****    Snap n Grip szerszámkészlet - 2.690 Ft-ért    *****    Las Vegas szerepjáték, ahol azzá válhatsz akivé csak akarsz és ne feledd: ami Vegasban történik, az Vegasban is marad.;)